ISO-10303-21;
HEADER;
FILE_DESCRIPTION (( 'STEP AP203' ),
    '1' );
FILE_NAME ('BK7-LPDBSP-25.4-550.STEP',
    '2020-12-22T02:18:40',
    ( '' ),
    ( '' ),
    'SwSTEP 2.0',
    'SolidWorks 2020',
    '' );
FILE_SCHEMA (( 'CONFIG_CONTROL_DESIGN' ));
ENDSEC;

DATA;
#1 = DIRECTION ( 'NONE',  ( -1.000000000000000000, -0.000000000000000000, -0.000000000000000000 ) ) ;
#2 = ADVANCED_FACE ( 'NONE', ( #174 ), #98, .F. ) ;
#3 = DIRECTION ( 'NONE',  ( -1.000000000000000000, 0.000000000000000000, -0.000000000000000000 ) ) ;
#4 = DIRECTION ( 'NONE',  ( 1.000000000000000000, 0.000000000000000000, 0.000000000000000000 ) ) ;
#5 = CIRCLE ( 'NONE', #7, 12.69999999999999929 ) ;
#6 = PERSON_AND_ORGANIZATION ( #110, #51 ) ;
#7 = AXIS2_PLACEMENT_3D ( 'NONE', #66, #123, #55 ) ;
#8 = PERSON_AND_ORGANIZATION_ROLE ( 'creator' ) ;
#9 = LOCAL_TIME ( 10, 18, 40.00000000000000000, #94 ) ;
#10 = ORIENTED_EDGE ( 'NONE', *, *, #175, .F. ) ;
#11 = AXIS2_PLACEMENT_3D ( 'NONE', #166, #3, #17 ) ;
#12 = ORIENTED_EDGE ( 'NONE', *, *, #93, .T. ) ;
#13 = CARTESIAN_POINT ( 'NONE',  ( -5.939536975864662969E-16, 12.69999999999999929, 0.000000000000000000 ) ) ;
#14 = CYLINDRICAL_SURFACE ( 'NONE', #162, 12.69999999999999929 ) ;
#15 = CC_DESIGN_DATE_AND_TIME_ASSIGNMENT ( #48, #16, ( #76 ) ) ;
#16 = DATE_TIME_ROLE ( 'creation_date' ) ;
#17 = DIRECTION ( 'NONE',  ( -0.000000000000000000, 0.000000000000000000, 1.000000000000000000 ) ) ;
#18 = COORDINATED_UNIVERSAL_TIME_OFFSET ( 8, 0, .AHEAD. ) ;
#19 = DATE_AND_TIME ( #95, #145 ) ;
#20 = APPLICATION_PROTOCOL_DEFINITION ( 'international standard', 'config_control_design', 1994, #173 ) ;
#21 = DESIGN_CONTEXT ( 'detailed design', #173, 'design' ) ;
#22 = APPROVAL_ROLE ( '' ) ;
#23 = CIRCLE ( 'NONE', #41, 12.69999999999999929 ) ;
#24 = PRODUCT ( 'BK7-LPDBSP-25.4-550', 'BK7-LPDBSP-25.4-550', '', ( #103 ) ) ;
#25 = PERSON_AND_ORGANIZATION ( #110, #51 ) ;
#26 = ADVANCED_FACE ( 'NONE', ( #37 ), #56, .T. ) ;
#27 = DIRECTION ( 'NONE',  ( -1.000000000000000000, -0.000000000000000000, -0.000000000000000000 ) ) ;
#28 = ORIENTED_EDGE ( 'NONE', *, *, #93, .F. ) ;
#29 = CARTESIAN_POINT ( 'NONE',  ( 3.499999999999998224, 0.000000000000000000, 12.69999999999999929 ) ) ;
#30 = AXIS2_PLACEMENT_3D ( 'NONE', #89, #169, #4 ) ;
#31 = PERSON_AND_ORGANIZATION ( #110, #51 ) ;
#32 = APPROVAL ( #141, 'UNSPECIFIED' ) ;
#33 = PRODUCT_DEFINITION_SHAPE ( 'NONE', 'NONE',  #76 ) ;
#34 = VECTOR ( 'NONE', #1, 1000.000000000000000 ) ;
#35 = PERSON_AND_ORGANIZATION ( #110, #51 ) ;
#36 = COORDINATED_UNIVERSAL_TIME_OFFSET ( 8, 0, .AHEAD. ) ;
#37 = FACE_OUTER_BOUND ( 'NONE', #40, .T. ) ;
#38 = MANIFOLD_SOLID_BREP ( 'Ðý×', #121 ) ;
#39 = CC_DESIGN_APPROVAL ( #32, ( #82 ) ) ;
#40 = EDGE_LOOP ( 'NONE', ( #108, #12, #131, #42 ) ) ;
#41 = AXIS2_PLACEMENT_3D ( 'NONE', #44, #137, #57 ) ;
#42 = ORIENTED_EDGE ( 'NONE', *, *, #138, .F. ) ;
#43 = DIRECTION ( 'NONE',  ( 0.000000000000000000, 0.000000000000000000, -1.000000000000000000 ) ) ;
#44 = CARTESIAN_POINT ( 'NONE',  ( 3.499999999999998224, 0.000000000000000000, 0.000000000000000000 ) ) ;
#45 = APPROVAL_PERSON_ORGANIZATION ( #129, #61, #85 ) ;
#46 = CC_DESIGN_PERSON_AND_ORGANIZATION_ASSIGNMENT ( #157, #104, ( #72 ) ) ;
#47 =( NAMED_UNIT ( * ) PLANE_ANGLE_UNIT ( ) SI_UNIT ( $, .RADIAN. ) );
#48 = DATE_AND_TIME ( #136, #172 ) ;
#49 = COORDINATED_UNIVERSAL_TIME_OFFSET ( 8, 0, .AHEAD. ) ;
#50 = EDGE_CURVE ( 'NONE', #148, #149, #5, .T. ) ;
#51 = ORGANIZATION ( 'UNSPECIFIED', 'UNSPECIFIED', '' ) ;
#52 = PRODUCT_RELATED_PRODUCT_CATEGORY ( 'detail', '', ( #24 ) ) ;
#53 = ORIENTED_EDGE ( 'NONE', *, *, #74, .F. ) ;
#54 = CIRCLE ( 'NONE', #124, 12.69999999999999929 ) ;
#55 = DIRECTION ( 'NONE',  ( 0.000000000000000000, 0.000000000000000000, 1.000000000000000000 ) ) ;
#56 = CYLINDRICAL_SURFACE ( 'NONE', #153, 12.69999999999999929 ) ;
#57 = DIRECTION ( 'NONE',  ( 0.000000000000000000, 0.000000000000000000, 1.000000000000000000 ) ) ;
#58 = CARTESIAN_POINT ( 'NONE',  ( 0.000000000000000000, 0.000000000000000000, 12.69999999999999929 ) ) ;
#59 =( NAMED_UNIT ( * ) SI_UNIT ( $, .STERADIAN. ) SOLID_ANGLE_UNIT ( ) );
#60 = APPLICATION_PROTOCOL_DEFINITION ( 'international standard', 'config_control_design', 1994, #92 ) ;
#61 = APPROVAL ( #81, 'UNSPECIFIED' ) ;
#62 = DATE_AND_TIME ( #91, #154 ) ;
#63 =( GEOMETRIC_REPRESENTATION_CONTEXT ( 3 ) GLOBAL_UNCERTAINTY_ASSIGNED_CONTEXT ( ( #87 ) ) GLOBAL_UNIT_ASSIGNED_CONTEXT ( ( #84, #47, #59 ) ) REPRESENTATION_CONTEXT ( 'NONE', 'WORKASPACE' ) );
#64 = DATE_AND_TIME ( #77, #9 ) ;
#65 = ORIENTED_EDGE ( 'NONE', *, *, #138, .T. ) ;
#66 = CARTESIAN_POINT ( 'NONE',  ( 3.499999999999998224, 0.000000000000000000, 0.000000000000000000 ) ) ;
#67 = VERTEX_POINT ( 'NONE', #107 ) ;
#68 = DIRECTION ( 'NONE',  ( 1.000000000000000000, 0.000000000000000000, 0.000000000000000000 ) ) ;
#69 = DIRECTION ( 'NONE',  ( -1.000000000000000000, -0.000000000000000000, -0.000000000000000000 ) ) ;
#70 = FACE_OUTER_BOUND ( 'NONE', #122, .T. ) ;
#71 = CALENDAR_DATE ( 2020, 22, 12 ) ;
#72 = SECURITY_CLASSIFICATION ( '', '', #140 ) ;
#73 = DATE_AND_TIME ( #71, #160 ) ;
#74 = EDGE_CURVE ( 'NONE', #149, #148, #23, .T. ) ;
#75 = APPROVAL_PERSON_ORGANIZATION ( #105, #32, #22 ) ;
#76 = PRODUCT_DEFINITION ( 'UNKNOWN', '', #82, #21 ) ;
#77 = CALENDAR_DATE ( 2020, 22, 12 ) ;
#78 = EDGE_LOOP ( 'NONE', ( #133, #158 ) ) ;
#79 = AXIS2_PLACEMENT_3D ( 'NONE', #113, #151, #126 ) ;
#80 = DIRECTION ( 'NONE',  ( 0.000000000000000000, 0.000000000000000000, 1.000000000000000000 ) ) ;
#81 = APPROVAL_STATUS ( 'not_yet_approved' ) ;
#82 = PRODUCT_DEFINITION_FORMATION_WITH_SPECIFIED_SOURCE ( 'ANY', '', #24, .NOT_KNOWN. ) ;
#83 = CARTESIAN_POINT ( 'NONE',  ( 0.000000000000000000, 0.000000000000000000, 0.000000000000000000 ) ) ;
#84 =( LENGTH_UNIT ( ) NAMED_UNIT ( * ) SI_UNIT ( .MILLI., .METRE. ) );
#85 = APPROVAL_ROLE ( '' ) ;
#86 = PERSON_AND_ORGANIZATION_ROLE ( 'design_owner' ) ;
#87 = UNCERTAINTY_MEASURE_WITH_UNIT (LENGTH_MEASURE( 1.000000000000000082E-05 ), #84, 'distance_accuracy_value', 'NONE');
#88 = SHAPE_DEFINITION_REPRESENTATION ( #33, #99 ) ;
#89 = CARTESIAN_POINT ( 'NONE',  ( 0.000000000000000000, 0.000000000000000000, 0.000000000000000000 ) ) ;
#90 = ADVANCED_FACE ( 'NONE', ( #100 ), #115, .F. ) ;
#91 = CALENDAR_DATE ( 2020, 22, 12 ) ;
#92 = APPLICATION_CONTEXT ( 'configuration controlled 3d designs of mechanical parts and assemblies' ) ;
#93 = EDGE_CURVE ( 'NONE', #149, #67, #135, .T. ) ;
#94 = COORDINATED_UNIVERSAL_TIME_OFFSET ( 8, 0, .AHEAD. ) ;
#95 = CALENDAR_DATE ( 2020, 22, 12 ) ;
#96 = ADVANCED_FACE ( 'NONE', ( #70 ), #14, .T. ) ;
#97 = VERTEX_POINT ( 'NONE', #125 ) ;
#98 = PLANE ( 'NONE',  #156 ) ;
#99 = ADVANCED_BREP_SHAPE_REPRESENTATION ( 'BK7-LPDBSP-25.4-550', ( #38, #30 ), #63 ) ;
#100 = FACE_OUTER_BOUND ( 'NONE', #146, .T. ) ;
#101 = DIRECTION ( 'NONE',  ( -1.000000000000000000, -0.000000000000000000, -0.000000000000000000 ) ) ;
#102 = CARTESIAN_POINT ( 'NONE',  ( -1.187907395172932594E-15, 0.000000000000000000, 0.000000000000000000 ) ) ;
#103 = MECHANICAL_CONTEXT ( 'NONE', #92, 'mechanical' ) ;
#104 = PERSON_AND_ORGANIZATION_ROLE ( 'classification_officer' ) ;
#105 = PERSON_AND_ORGANIZATION ( #110, #51 ) ;
#106 = APPROVAL_DATE_TIME ( #62, #32 ) ;
#107 = CARTESIAN_POINT ( 'NONE',  ( -1.187907395172932594E-15, 1.555301434917138433E-15, -12.69999999999999929 ) ) ;
#108 = ORIENTED_EDGE ( 'NONE', *, *, #50, .T. ) ;
#109 = CC_DESIGN_PERSON_AND_ORGANIZATION_ASSIGNMENT ( #31, #86, ( #24 ) ) ;
#110 = PERSON ( 'UNSPECIFIED', 'UNSPECIFIED', 'UNSPECIFIED', ('UNSPECIFIED'), ('UNSPECIFIED'), ('UNSPECIFIED') ) ;
#111 = LINE ( 'NONE', #58, #134 ) ;
#112 = CC_DESIGN_PERSON_AND_ORGANIZATION_ASSIGNMENT ( #6, #118, ( #76 ) ) ;
#113 = CARTESIAN_POINT ( 'NONE',  ( -1.187907395172932594E-15, 0.000000000000000000, 0.000000000000000000 ) ) ;
#114 = DIRECTION ( 'NONE',  ( -1.000000000000000000, -0.000000000000000000, -0.000000000000000000 ) ) ;
#115 = PLANE ( 'NONE',  #11 ) ;
#116 = CC_DESIGN_SECURITY_CLASSIFICATION ( #72, ( #82 ) ) ;
#117 = CC_DESIGN_PERSON_AND_ORGANIZATION_ASSIGNMENT ( #35, #8, ( #82 ) ) ;
#118 = PERSON_AND_ORGANIZATION_ROLE ( 'creator' ) ;
#119 = DATE_TIME_ROLE ( 'classification_date' ) ;
#120 = APPROVAL_PERSON_ORGANIZATION ( #25, #147, #170 ) ;
#121 = CLOSED_SHELL ( 'NONE', ( #26, #96, #90, #2 ) ) ;
#122 = EDGE_LOOP ( 'NONE', ( #28, #163, #65, #10 ) ) ;
#123 = DIRECTION ( 'NONE',  ( -1.000000000000000000, -0.000000000000000000, -0.000000000000000000 ) ) ;
#124 = AXIS2_PLACEMENT_3D ( 'NONE', #102, #101, #167 ) ;
#125 = CARTESIAN_POINT ( 'NONE',  ( -1.187907395172932594E-15, 0.000000000000000000, 12.69999999999999929 ) ) ;
#126 = DIRECTION ( 'NONE',  ( 0.000000000000000000, 0.000000000000000000, 1.000000000000000000 ) ) ;
#127 = CARTESIAN_POINT ( 'NONE',  ( 0.000000000000000000, 1.555301434917138433E-15, -12.69999999999999929 ) ) ;
#128 = APPROVAL_DATE_TIME ( #73, #61 ) ;
#129 = PERSON_AND_ORGANIZATION ( #110, #51 ) ;
#130 = CARTESIAN_POINT ( 'NONE',  ( 0.000000000000000000, 0.000000000000000000, 0.000000000000000000 ) ) ;
#131 = ORIENTED_EDGE ( 'NONE', *, *, #171, .F. ) ;
#132 = CC_DESIGN_APPROVAL ( #61, ( #76 ) ) ;
#133 = ORIENTED_EDGE ( 'NONE', *, *, #171, .T. ) ;
#134 = VECTOR ( 'NONE', #114, 1000.000000000000000 ) ;
#135 = LINE ( 'NONE', #127, #34 ) ;
#136 = CALENDAR_DATE ( 2020, 22, 12 ) ;
#137 = DIRECTION ( 'NONE',  ( -1.000000000000000000, -0.000000000000000000, -0.000000000000000000 ) ) ;
#138 = EDGE_CURVE ( 'NONE', #148, #97, #111, .T. ) ;
#139 = CC_DESIGN_APPROVAL ( #147, ( #72 ) ) ;
#140 = SECURITY_CLASSIFICATION_LEVEL ( 'unclassified' ) ;
#141 = APPROVAL_STATUS ( 'not_yet_approved' ) ;
#142 = CC_DESIGN_DATE_AND_TIME_ASSIGNMENT ( #19, #119, ( #72 ) ) ;
#143 = APPROVAL_DATE_TIME ( #64, #147 ) ;
#144 = PERSON_AND_ORGANIZATION_ROLE ( 'design_supplier' ) ;
#145 = LOCAL_TIME ( 10, 18, 40.00000000000000000, #36 ) ;
#146 = EDGE_LOOP ( 'NONE', ( #161, #53 ) ) ;
#147 = APPROVAL ( #168, 'UNSPECIFIED' ) ;
#148 = VERTEX_POINT ( 'NONE', #29 ) ;
#149 = VERTEX_POINT ( 'NONE', #165 ) ;
#150 = DIRECTION ( 'NONE',  ( 0.000000000000000000, 0.000000000000000000, 1.000000000000000000 ) ) ;
#151 = DIRECTION ( 'NONE',  ( -1.000000000000000000, -0.000000000000000000, -0.000000000000000000 ) ) ;
#152 = CIRCLE ( 'NONE', #79, 12.69999999999999929 ) ;
#153 = AXIS2_PLACEMENT_3D ( 'NONE', #130, #27, #150 ) ;
#154 = LOCAL_TIME ( 10, 18, 40.00000000000000000, #49 ) ;
#155 = PERSON_AND_ORGANIZATION ( #110, #51 ) ;
#156 = AXIS2_PLACEMENT_3D ( 'NONE', #13, #68, #43 ) ;
#157 = PERSON_AND_ORGANIZATION ( #110, #51 ) ;
#158 = ORIENTED_EDGE ( 'NONE', *, *, #175, .T. ) ;
#159 = CC_DESIGN_PERSON_AND_ORGANIZATION_ASSIGNMENT ( #155, #144, ( #82 ) ) ;
#160 = LOCAL_TIME ( 10, 18, 40.00000000000000000, #18 ) ;
#161 = ORIENTED_EDGE ( 'NONE', *, *, #50, .F. ) ;
#162 = AXIS2_PLACEMENT_3D ( 'NONE', #83, #69, #80 ) ;
#163 = ORIENTED_EDGE ( 'NONE', *, *, #74, .T. ) ;
#164 = COORDINATED_UNIVERSAL_TIME_OFFSET ( 8, 0, .AHEAD. ) ;
#165 = CARTESIAN_POINT ( 'NONE',  ( 3.499999999999998224, 1.555301434917138433E-15, -12.69999999999999929 ) ) ;
#166 = CARTESIAN_POINT ( 'NONE',  ( 3.499999999999999112, 12.69999999999999929, 0.000000000000000000 ) ) ;
#167 = DIRECTION ( 'NONE',  ( 0.000000000000000000, 0.000000000000000000, 1.000000000000000000 ) ) ;
#168 = APPROVAL_STATUS ( 'not_yet_approved' ) ;
#169 = DIRECTION ( 'NONE',  ( 0.000000000000000000, 0.000000000000000000, 1.000000000000000000 ) ) ;
#170 = APPROVAL_ROLE ( '' ) ;
#171 = EDGE_CURVE ( 'NONE', #97, #67, #54, .T. ) ;
#172 = LOCAL_TIME ( 10, 18, 40.00000000000000000, #164 ) ;
#173 = APPLICATION_CONTEXT ( 'configuration controlled 3d designs of mechanical parts and assemblies' ) ;
#174 = FACE_OUTER_BOUND ( 'NONE', #78, .T. ) ;
#175 = EDGE_CURVE ( 'NONE', #67, #97, #152, .T. ) ;
ENDSEC;
END-ISO-10303-21;
